АБВ
Pesenok.ru
  • А
  • Б
  • В
  • Г
  • Д
  • Е
  • Ж
  • З
  • И
  • К
  • Л
  • М
  • Н
  • О
  • П
  • Р
  • С
  • Т
  • У
  • Ф
  • Х
  • Ц
  • Ч
  • Ш
  • Э
  • Ю
  • Я
  • A
  • B
  • C
  • D
  • E
  • F
  • G
  • H
  • I
  • J
  • K
  • L
  • M
  • N
  • O
  • P
  • Q
  • R
  • S
  • T
  • U
  • V
  • W
  • X
  • Y
  • Z
  • #
  • Текст песни God Is an Astronaut - Frozen Twilight

    Исполнитель: God Is an Astronaut
    Название песни: Frozen Twilight
    Дата добавления: 12.07.2014 | 20:27:21
    Просмотров: 29
    0 чел. считают текст песни верным
    0 чел. считают текст песни неверным
    На этой странице находится текст песни God Is an Astronaut - Frozen Twilight, а также перевод песни и видео или клип.
    Main Riff:
    Repeat 2x
    [00:00 - 00:46]

    e|-----8------8------8------8------8------8------8------8------8-------------|
    B|-------0------0-------------0------0-------------0------0------------------|
    G|---------------------------------------------------------------------------|
    D|---7------7------7------5------5------5------0------0------0---------------|
    A|---------------------------------------------------------------------------|
    E|---------------------------------------------------------------------------|

    e|-----5------5------3-------------8------8------8-------10------10------10--|
    B|-------0---------------------------0------0---------------0----------------|
    G|---------------------------------------------------------------------------|
    D|---3------3------3------3------7------7------7------10------10------10-----|
    A|---------------------------------------------------------------------------|
    E|---------------------------------------------------------------------------|

    e|-----7------7------8-------------5------5------3---------------------------|
    B|-------0---------------------------0---------------------------------------|
    G|---------------------------------------------------------------------------|
    D|---5------5------5------5------3------3------3-----------------------------|
    A|---------------------------------------------------------------------------|
    E|---------------------------------------------------------------------------|

    Riff 2:
    Repeat 2x
    [00:47 - 1:07]

    e|-----3------3------3------5------5------5------7------7------8-------------|
    B|-------0------0-------------0------0-------------0-------------------------|
    G|---------------------------------------------------------------------------|
    D|---2------2------2------5------5------5------------------------------------|
    A|---------------------------------------------5------5------5------5--------|
    E|---------------------------------------------------------------------------|

    e|-----3------3------3------3------3------3------5------5------5-------------|
    B|-------0------0-------------0------0-------------0------0------------------|
    G|---------------------------------------------------------------------------|
    D|---3------3------3------2------2------2------5------5------5---------------|
    A|---------------------------------------------------------------------------|
    E|---------------------------------------------------------------------------|

    e|-----7------7------8------------3------3------3------3------3------3-------|
    B|-------0--------------------------0------0-------------0------0------------|
    G|---------------------------------------------------------------------------|
    D|------------------------------3------3------3------------------------------|
    A|---5------5------5------5-------------------------3------3------3----------|
    E|---------------------------------------------------------------------------|

    Repeat Main Riff: 2x
    [01:08 - 01:46]

    Repeat Riff 2: 2x
    [01:47 - 02:18]

    Riff 3 (background guitar):
    Repeat until end of song
    [02:18 - end ]

    e|-----3------3------3------3------3------3------3------3------3-------------|
    B|-------0------0-------------0------0-------------0------0------------------|
    G|---------------------------------------------------------------------------|
    D|---2------2------2------0------0------0------------------------------------|
    A|---------------------------------------------2------2------2---------------|
    E|---------------------------------------------------------------------------|

    e|-----3------3------3------3------3------3------3------3------3-------------|
    B|-------0------0-------------0------0-------------0------0------------------|
    G|---------------------------------------------------------------------------|
    D|------------------------2------2------2------0------0------0---------------|
    A|---3------3------3-------
    Главная Рифф :
    повторяется 2 раза
    [ 00:00 - 00:46 ]

    э | ----- 8 ------ 8 ------ 8 ------ 8 ------ 8 ------ 8 ------ 8 ------ 8 ------ 8 ------------- |
    B | ------- 0 ------ 0 ------------- 0 ------ 0 ------------ -0 ------ 0 ------------------ |
    G | ------------------------------------------------ --------------------------- |
    D | --- 7 ------ 7 ------ 7 ------ 5 ------ 5 ------ 5 ------ 0 - ---- 0 ------ 0 --------------- |
    | ------------------------------------------------ --------------------------- |
    E | ------------------------------------------------ --------------------------- |

    э | ----- 5 ------ 5 ------ 3 ------------- 8 ------ 8 ------ 8 ------- 10 ------ 10 ------ 10 - |
    B | ------- 0 --------------------------- 0 ------ 0 ----- ---------- 0 ---------------- |
    G | ------------------------------------------------ --------------------------- |
    D | --- 3 ------ 3 ------ 3 ------ 3 ------ 7 ------ 7 ------ 7 - ---- 10 ------ 10 ------ 10 ----- |
    | ------------------------------------------------ --------------------------- |
    E | ------------------------------------------------ --------------------------- |

    э | ----- 7 ------ 7 ------ 8 ------------- 5 ------ 5 ------ 3 --------------------------- |
    B | ------- 0 --------------------------- 0 ------------ --------------------------- |
    G | ------------------------------------------------ --------------------------- |
    D | --- 5 ------ 5 ------ 5 ------ 5 ------ 3 ------ 3 ------ 3 - --------------------------- |
    | ------------------------------------------------ --------------------------- |
    E | ------------------------------------------------ --------------------------- |

    Рифф 2 :
    повторяется 2 раза
    [ 00:47 - 1:07 ]

    э | ----- 3 ------ 3 ------ 3 ------ 5 ------ 5 ------ 5 ------ 7 ------ 7 ------ 8 ------------- |
    B | ------- 0 ------ 0 ------------- 0 ------ 0 ------------ -0 ------------------------- |
    G | ------------------------------------------------ --------------------------- |
    D | --- 2 ------ 2 ------ 2 ------ 5 ------ 5 ------ 5 --------- --------------------------- |
    | --------------------------------------------- 5 - ---- 5 ------ 5 ------ 5 -------- |
    E | ------------------------------------------------ --------------------------- |

    э | ----- 3 ------ 3 ------ 3 ------ 3 ------ 3 ------ 3 ------ 5 ------ 5 ------ 5 ------------- |
    B | ------- 0 ------ 0 ------------- 0 ------ 0 ------------ -0 ------ 0 ------------------ |
    G | ------------------------------------------------ --------------------------- |
    D | --- 3 ------ 3 ------ 3 ------ 2 ------ 2 ------ 2 ------ 5 - ---- 5 ------ 5 --------------- |
    | ------------------------------------------------ --------------------------- |
    E | ------------------------------------------------ --------------------------- |

    э | ----- 7 ------ 7 ------ 8 ------------ 3 ------ 3 ------ 3 - ----- 3 ------ 3 ------ 3 ------- |
    B | ------- 0 -------------------------- 0 ------ 0 ------ ------- 0 ------ 0 ------------ |
    G | ------------------------------------------------ --------------------------- |
    D | ------------------------------ 3 ------ 3 ------ 3 --- --------------------------- |
    | --- 5 ------ 5 ------ 5 ------ 5 ----------------------- - 3 ------ 3 ------ 3 ---------- |
    E | ------------------------------------------------ --------------------------- |

    Повторите основной рифф : 2x
    [ 1:08 - 1:46 ]

    Повторите Riff 2 : 2x
    [ 1:47 - 2:18 ]

    Рифф 3 ( фон гитара) :
    Повторяйте до конца песни
    [ 2:18 - конец]

    э | ----- 3 ------ 3 ------ 3 ------ 3 ------ 3 ------ 3 ------ 3 ------ 3 ------ 3 ------------- |
    B | ------- 0 ------ 0 ------------- 0 ------ 0 ------------ -0 ------ 0 ------------------ |
    G | ------------------------------------------------ --------------------------- |
    D | --- 2 ------ 2 ------ 2 ------ 0 ------ 0 ------ 0 --------- --------------------------- |
    | --------------------------------------------- 2 - ---- 2 ------ 2 --------------- |
    E | ------------------------------------------------ --------------------------- |

    э | ----- 3 ------ 3 ------ 3 ------ 3 ------ 3 ------ 3 ------ 3 ------ 3 ------ 3 ------------- |
    B | ------- 0 ------ 0 ------------- 0 ------ 0 ------------ -0 ------ 0 ------------------ |
    G | ------------------------------------------------ --------------------------- |
    D | ------------------------ 2 ------ 2 ------ 2 ------ 0 - ---- 0 ------ 0 --------------- |
    | --- 3 ------ 3 ------ 3 -------

    Скачать

    Смотрите также:

    Все тексты God Is an Astronaut >>>

    О чем песня God Is an Astronaut - Frozen Twilight?

    Отправить
    Верный ли текст песни?
    ДаНет