• А
  • Б
  • В
  • Г
  • Д
  • Е
  • Ж
  • З
  • И
  • К
  • Л
  • М
  • Н
  • О
  • П
  • Р
  • С
  • Т
  • У
  • Ф
  • Х
  • Ц
  • Ч
  • Ш
  • Э
  • Ю
  • Я
  • A
  • B
  • C
  • D
  • E
  • F
  • G
  • H
  • I
  • J
  • K
  • L
  • M
  • N
  • O
  • P
  • Q
  • R
  • S
  • T
  • U
  • V
  • W
  • X
  • Y
  • Z
  • #
  • Текст песни Mana - Tu tienes lo que quero

    Исполнитель: Mana
    Название песни: Tu tienes lo que quero
    Дата добавления: 10.05.2014 | 15:18:45
    Просмотров: 32
    0 чел. считают текст песни верным
    0 чел. считают текст песни неверным
    На этой странице находится текст песни Mana - Tu tienes lo que quero, а также перевод песни и видео или клип.

    Кто круче?

    или
    Tu Tienes Lo Que Quiero

    Intro
    |-----------------------------------------------------------------|
    |-----------------------------------------------------------------|
    |-----------------------------------------------------------------|
    |-----9--10---------------------------------10--10--9--9--7--|
    |--7---------------10--12------12-----------------------------|
    |------------8--8----------10-------10-------------------------|

    |-----------------------------------------------------------------|
    |-----------------------------------------------------------------|
    |-----------------------------------------------------------------|
    |-----9--10----------------------------------------9--10--9---|
    |--7---------------10--12------12-----------------------------|
    |------------8--8----------10-------10-----7--7---------------|

    Em C D
    ay! mujer que buena tu te vez
    D Em C D
    tu forma me alucina
    Em C D Em C D
    y yo se que sabes como estas lo enseсas sin medida, niсa
    Em C D Em C D
    a ti te gusta vacilar, lo que tu quieres es gozar
    Em C D Em C D
    y la noche te invita a rumbear mojada de calor de calor

    (prechorus)
    C Em D C
    con pinta de una diva
    C Em D C
    gozando asta que salga el sol
    Em D
    como quiero tenerte
    C D
    me haz robado el corazуn

    Em C D
    tu tienes lo que quiero

    Em C D
    me prendes como el fuego
    Em C D
    tu tienes lo que quiero
    Em C D
    me prendes como el fuego

    Em C D
    ven pa'ca y muйvemelo aquн
    Em C D
    mamita estas ardiendo
    Em C D
    recorrer tu cuerpo y explorar
    Em C D
    basarte sin aliento, corazуn

    (prechorus)
    (chorus)

    solo (Em-C-D)

    C D Em
    quiero probar tu amor quiero comerte a besos
    C D Em
    tu eres para mi un sueсo tan perfecto
    C D Em
    contigo pachanguear rumbeando sin parar
    Em D C
    te quiero para mi ho... yeah!
    Em C Em
    gozando hasta el amanecer

    (chorus)

    Em C
    acerca te un poco para aca
    D Em-C-D
    dame tu amor damelo ya
    Em C
    acercate un poco pra aca
    D Em-C-D
    Dame tu amor damelo ya
    Lo Que Quiero Tu Tienes

    Intro
    | ------------------------------------------------- ---------------- |
    | ------------------------------------------------- ---------------- |
    | ------------------------------------------------- ---------------- |
    | ----- 9 - 10----------- ---------------------- 10 - 10-9 - 9 - 7 - |
    | - 7 --------------- 10-12 ------ 12----------- --------- --------- |
    | ------------ 8-8 ---------- 10 ------- 10----------- --- ----------- |

    | ------------------------------------------------- ---------------- |
    | ------------------------------------------------- ---------------- |
    | ------------------------------------------------- ---------------- |
    | ----- 9 - 10----------- ----------------------------- 9 - 10-9 --- |
    | - 7 --------------- 10-12 ------ 12----------- --------- --------- |
    | ------------ 8-8 ---------- 10 ------- 10 ----- 7-7 ----- ---------- |

    Em C D
    ay ! buena mujer que tu te vez
    Em D C D
    tu form me alucina
    Em CD Em CD
    will yo y lo que Sabe como esta medida sin enseсas , niсa
    Em C D Em C D
    vacilar a ti te gusta , es lo que tu quieres gozar
    Em CD Em CD
    y la noche de te screw a mojada rumbear de CALOR CALOR

    ( prechorus )
    C Em D C
    con pint de una diva
    C Em D C
    gozando asta que salga el sol
    em D
    como quiero tenerte
    C D
    me haz el robado corazуn

    Em C D
    tu tienes lo que quiero

    Em C D
    Prendes me como el fuego
    Em C D
    tu tienes lo que quiero
    Em C D
    me Prendes como el fuego

    Em C D
    pa'ca ven y muйvemelo aquн
    Em C D
    Esta mamita ardiendo
    Em C D
    recorrer tu Cuerpo y explorar
    Em C D
    basarte sin aliento , corazуn

    ( prechorus )
    ( chorus )

    solo ( Em- C- D )

    CD Em
    probar quiero quiero tu amor comerte a Besos
    C D Em
    tu eres para mi un perfecto sueсo of
    CD Em
    rumbeando pachanguear contigo sin parar
    Em D C
    te quiero para mi ho ... yeah !
    Em C Em
    gozando hasta el amanecer

    ( chorus )

    em C
    te acerca un poco para aca
    D Em- C- D
    dame tu amor ya damelo
    em C
    acercate un poco pra aca
    D Em- C- D
    Dame tu amor ya damelo

    Смотрите также:

    Все тексты Mana >>>

    Опрос: Верный ли текст песни?
    ДаНет